Jump to content


Loading

allthumbs

Member Since 11 Feb 2005
OFFLINE Last Active Dec 08 2012 07:43 PM
-----

Topics I've Started

Life Is Good

10 March 2012 - 12:52 PM

Walking around with a favourite song stuck in your head. Being able to play it on your guitar. Having the lyrics memorized. Perfect. :)

Songs In THe Key Of A

22 July 2011 - 11:23 AM

Hi all. I need some suggestions for songs for female vocalists in the key of A. Acoustic if possible but, what ever you have. thank you.

new content?

21 July 2011 - 07:42 AM

New content is defaulting to news feeds. Did I miss something?

Blues For A lazy Sunday Afternoon

23 January 2011 - 04:14 PM


A little finger picking blues. One run through. Feel free to make it yours. Add to it or what ever. (Oops correction)Key of E Get the timing from the recording, Some classic blues licks in there. Have fun


Attached File  blues.mp3   755.97K   107 downloads

Part A Repeat 4 times.


----------------------0----B --0-----------
----B/P------------------3---------trill----
---2---0------------------------------1----
-------------2------------------------------
--------------------------------------------
-------------------0 ---------------------


Part 2 Repeat 2 times

_________________B____B____B
-------------0---3----3----3----0---------B---0-----------------------------------0------B--0-------------------------
--0----3------------------------------0----3----------H----P-----------------------------3---------trill-------------------
--------------------------------------------------------0---2-----0-------------------------------------1------------------
------------------------------------------------------------------------2-------------------------------------------------
-------------------------------------------------------------------------------------------------------------------------
-----------------------------------------------------------------------------0--------------------------------------------

Part 3 1 time

------------------V---V------V---------------V--------------------------------------0----B----0----------------
-----0---3-----5----5------5---------------3------0-------P----------------------------3-----------trill--------
------------------------------------4-----------------------2-----0--------------------------------------1---------------
--------------------------------------------------------------------------2----------------------------------------------
-------------------------------------------------------------------------------------------------------------------------
-------------------------------------------------------------------------------0-----------------------------------------

End

---------------------------------------
-----------------3----------------------
-----------------1-----------------------
--------------------------------------
---------------------------------------
--------------------------------------

B= bend
H= hammer on
P= pull off
V= vibrato

Great Slide Tune

07 November 2010 - 10:15 AM

Just found this. Great song, Great slide. Cool vid. Love it.