Jump to content

Recommended Posts

A tune from me. :yes: I wrote i back in the 1986. This recording i s from yesterday. Hope U´ll like it.

It has both a written head and a part for improvising. I really like to connect my thoughts and feelings directly to my guitar right here and now, playin in the very moment. Improvising is great. I really hope that this part of improvising in this tune will reach you and talk to you.

Heres the tab whit chords for the tune´s head/melody;

"An Old Tune - 1986." by Johan Paxom.
120 bmp, 4/4, Amin.

01
Am7
E|---------------------
B|-----------6h7p6-----
G|------------------9--
D|--------7------------
A|-----7---------------
E|--5------------------

02
E5
E|-----
B|-----
G|-----
D|--9--
A|-----
E|-----

03
Dm7
E|--------------------
B|--------------------
G|--------------------
D|--------7--9--7-----
A|-----7-----------7--
E|--5-----------------

04
C5
E|-----------
B|-----------
G|-----------
D|--5--------
A|-----5--7--
E|-----------

05
G7 #Gm7b5
E|-----------------------
B|-----------------------
G|-----------------------
D|--------7--9--7--------
A|-----7-----------7-----
E|--5--------------------

repeat from bar 01.

06
Am7
E|--0--5--------
B|--------6-----
G|-----------7--
D|--------------
A|--------------
E|--------------

07
E5
E|------------------
B|--6--5h6p5--------
G|------------5--7--
D|------------------
A|------------------
E|------------------

08
Dm7
E|-----
B|-----
G|-----
D|--7--
A|-----
E|-----

09
C5
E|---------------------------
B|---------------------------
G|--7--5--7--9--10--9--7--5--
D|---------------------------
A|---------------------------
E|---------------------------

10
G7 #Gm7b5
E|---------
B|---------
G|----5\7--
D|---------
A|---------
E|---------

repeat from bar 06.

play the head all over once again.

solo/improvising part.

play the head.


End.

An Old Tune -1986. (master)(3).mp3

Share this post


Link to post
Share on other sites

Sorry, I need to correct the bars 06 to 10. Heres the correct tab;

06
Am7
E|--0--5--------
B|--------6-----
G|-----------7--
D|--------------
A|--------------
E|--------------

07
E5
E|------------------
B|--6--5h6p5---
G|------------------
D|------------------
A|------------------
E|------------------

08
Dm7
E|------------------
B|------------------
G|--5--7-----------
D|------------------
A|------------------
E|------------------

09
C5
E|---------------------------
B|---------------------------
G|--7--5--7--9--10--9--7--
D|7--------------------------
A|---------------------------
E|---------------------------

10
G7 #Gm7b5
E|---------
B|---------
G|----5\7--
D|---------
A|---------
E|---------

Share this post


Link to post
Share on other sites

Create an account or sign in to comment

You need to be a member in order to leave a comment

Create an account

Sign up for a new account in our community. It's easy!

Register a new account

Sign in

Already have an account? Sign in here.

Sign In Now


  • Recently Browsing   0 members

    No registered users viewing this page.

×