Jump to content
macXYZ

Re - lesson: The CAGED System - The Anatomy of a C Major Guitar Chord

Recommended Posts

Hi Kirk,

Re - lesson: The CAGED System - The Anatomy of a C Major Guitar Chord

at: http://www.guitarforbeginners.com/Lessons/The_CAGED_System.html

Could you just expand on that demo video a little by telling me, in what order you are playing the notes,

ie the first 7 notes in the green box, ie form C

(I assume your also playing the open E & G notes)

To get the sense of it, to start with, the actual fret positions would be clearer for me.

Hoping you can oblige

Many thanks Mac

Share this post


Link to post
Share on other sites

Here you go, macXYZ ...

||----------------------|-------0----3---------|----------------------|----------------------|-------8--------------|

||----------------------|--1--------------5----|----------------------|-----------------5----|--8---------8---------|

||-----------------0----|----------------------|--5-------------------|------------5---------|-----------------9----|

||------------2---------|----------------------|-------5--------------|-------5--------------|----------------------|

||-------3--------------|----------------------|------------7----3----|--7-------------------|----------------------|

||--3-------------------|----------------------|----------------------|----------------------|----------------------|

-------------------------|------------------------|--8----12----------------|--------------||

-------------------------|-------------------8----|-------------13----------|--------------||

-------------------------|--------------9---------|-------------------12----|--------------||

--10---------------------|--------10--------------|-------------------------|--14----------||

--------10---------------|--10--------------------|-------------------------|--------15----||

--------------8----12----|------------------------|-------------------------|--------------||

Share this post


Link to post
Share on other sites

Create an account or sign in to comment

You need to be a member in order to leave a comment

Create an account

Sign up for a new account in our community. It's easy!

Register a new account

Sign in

Already have an account? Sign in here.

Sign In Now


  • Recently Browsing   0 members

    No registered users viewing this page.

×