Jump to content
Random Robot

Mixolydian Licks

Recommended Posts

scotty_b    16

I'm looking for some mixolydian guitar licks w/ a country feel. Actually I'll take any country guitar licks you've got and are wanting to share.

Hi

Have a look at the last lesson I posted - there are a few country ideas there.

Share this post


Link to post
Share on other sites

Thanks Scotty. Nice lesson just what I'm lookng for.

Here's one that I'm working on right now

---------------10-----------------------------

---------------------13---10---13---------------

---9--10--11------------------------10-11-------

-------------------------------------------------12---

-----------------------------------------------------

-----------------------------------------------------

or using the same idea of walking up to the 3rd and using your middle finger to play the 1 you can do this

--------------10----------8----------7---------5----

-----------------------------------------------5------

---9-10-11-----7-8-9----5-6-7----4-5----------

-----------------------------------------------------

-----------------------------------------------------

-----------------------------------------------------

Share and share alike

*wow, that doesn't post anything like what it looks like when I typed it in.

Share this post


Link to post
Share on other sites
Kirk Lorange    128

How's that, RR? I got in and edited it, hope you don't mind. Always use 'Courier New' font for tab, it's a fixed width font, meaning every character has the same width and everything lines up properly.

Share this post


Link to post
Share on other sites

Create an account or sign in to comment

You need to be a member in order to leave a comment

Create an account

Sign up for a new account in our community. It's easy!

Register a new account

Sign in

Already have an account? Sign in here.

Sign In Now


  • Recently Browsing   0 members

    No registered users viewing this page.

×