Sign in to follow this  
Followers 0
Lcjones

Beginning Bluegrass Licks

1 post in this topic

Hey guys,

I used to play Bluegrass guitar many, many, let me reiterate, many years ago. I haven't played Bluegrass guitar in at least 20 years. So I'm really rusty and I'm sure there are others on the board that play much better than I.

I've put together a couple bluegrass licks that are the mainstay of bluegrass guitar playing, plus a couple of bluegrass tags. These are pretty simple and with a bit of practice anyone can get these down without too much trouble.

And, let me apologize in advance for the background noise. I'm baby sitting and my Open Aire Studio, is really open air! ;)

Here's the sounds

Beginning Bluegrass Licks [6mb @ 6:17]

Here's some tab. (I'm not a tab guy, so I hope these are right!)

G Chord Lick Tab

|----------------------|

|----------------------|

|---------------0------|

|-------0-0h2p0--------|

|---0h2----------------|

|-3--------------------|

C Chord Lick Tab

|----------------------|

|-------------------1--|

|-----------0-0h2p0----|

|-------0h2------------|

|---3------------------|

|----------------------|

D Chord Lick Tab

|----------------------|

|------------------3---|

|----------2-2h4p2-----|

|--0---2h4-------------|

|----------------------|

|----------------------|

A Chord Lick Tab

|----------------------|

|----------------------|

|------------------2---|

|----------2-2h4p2-----|

|--0---2h4-------------|

|----------------------|

Anyway. I hope these get some bluegrassers fired up!

**

LC

Share this post


Link to post
Share on other sites
Guest
This topic is now closed to further replies.
Sign in to follow this  
Followers 0

  • Recently Browsing   0 members

    No registered users viewing this page.