Jump to content

Jannatul Ferdous

Members
  • Content count

    1
  • Joined

  • Last visited

Posts posted by Jannatul Ferdous


  1. Here is a scale practice lead I made 12 years before, Copy it on windows notepad, midi and notepad files are given below -

    |-3-1-0-3-1-0-3-1-0-3-1-0-3-1-0-3-/5-5-3-1-5-3-1-5-3-1-5-3-1-5-3-1-5-/7-|
    |-----------------------------------------------------------------------|
    |-----------------------------------------------------------------------|
    |-----------------------------------------------------------------------|
    |-----------------------------------------------------------------------|
    |-----------------------------------------------------------------------|


    |-7-5-3-7-5-3-7-5-3-7-5-3-7-5-3-7-/8-8-7-5-----7-5-------5-----------------|
    |------------------------------------------8-6-----8-6-5---8-6-5---5-6-5---|
    |----------------------------------------------------------------7---------|
    |--------------------------------------------------------------------------|
    |--------------------------------------------------------------------------|
    |--------------------------------------------------------------------------|


    |-------------5-7-------5-7-8-/10-8-7-5--------------|
    |-6-5---5-6-8-----5-6-8-----------------8-6-5--------|
    |-----7---------------------------------------7-5----|
    |----------------------------------------------------|
    |----------------------------------------------------|
    |----------------------------------------------------|

    Lead.mid

    Lead.tab

×